  0
SECTION
  2
HEADER
  9
$ACADVER
  1
AC1015
  9
$ACADMAINTVER
 70
     6
  9
$DWGCODEPAGE
  3
ANSI_1254
  9
$INSBASE
 10
0.0
 20
0.0
 30
0.0
  9
$EXTMIN
 10
0.0
 20
0.0
 30
0.0
  9
$EXTMAX
 10
279.4
 20
215.9
 30
0.0
  9
$LIMMIN
 10
0.0
 20
0.0
  9
$LIMMAX
 10
279.4
 20
215.9
  9
$ORTHOMODE
 70
     0
  9
$REGENMODE
 70
     1
  9
$FILLMODE
 70
     1
  9
$QTEXTMODE
 70
     0
  9
$MIRRTEXT
 70
     1
  9
$LTSCALE
 40
1.0
  9
$ATTMODE
 70
     1
  9
$TEXTSIZE
 40
3.5
  9
$TRACEWID
 40
1.0
  9
$TEXTSTYLE
  7
Standard
  9
$CLAYER
  8
0
  9
$CELTYPE
  6
ByLayer
  9
$CECOLOR
 62
   256
  9
$CELTSCALE
 40
1.0
  9
$DISPSILH
 70
     0
  9
$DIMSCALE
 40
1.0
  9
$DIMASZ
 40
3.5
  9
$DIMEXO
 40
1.0
  9
$DIMDLI
 40
3.75
  9
$DIMRND
 40
0.0
  9
$DIMDLE
 40
0.0
  9
$DIMEXE
 40
1.0
  9
$DIMTP
 40
0.0
  9
$DIMTM
 40
0.0
  9
$DIMTXT
 40
3.5
  9
$DIMCEN
 40
2.5
  9
$DIMTSZ
 40
0.0
  9
$DIMTOL
 70
     0
  9
$DIMLIM
 70
     0
  9
$DIMTIH
 70
     1
  9
$DIMTOH
 70
     1
  9
$DIMSE1
 70
     0
  9
$DIMSE2
 70
     0
  9
$DIMTAD
 70
     1
  9
$DIMZIN
 70
     0
  9
$DIMBLK
  1

  9
$DIMASO
 70
     1
  9
$DIMSHO
 70
     1
  9
$DIMPOST
  1

  9
$DIMAPOST
  1

  9
$DIMALT
 70
     0
  9
$DIMALTD
 70
     3
  9
$DIMALTF
 40
0.0393700787
  9
$DIMLFAC
 40
1.0
  9
$DIMTOFL
 70
     1
  9
$DIMTVP
 40
0.0
  9
$DIMTIX
 70
     0
  9
$DIMSOXD
 70
     0
  9
$DIMSAH
 70
     0
  9
$DIMBLK1
  1

  9
$DIMBLK2
  1

  9
$DIMSTYLE
  2
ISO-25
  9
$DIMCLRD
 70
     0
  9
$DIMCLRE
 70
     0
  9
$DIMCLRT
 70
     0
  9
$DIMTFAC
 40
1.0
  9
$DIMGAP
 40
1.524
  9
$DIMJUST
 70
     0
  9
$DIMSD1
 70
     0
  9
$DIMSD2
 70
     0
  9
$DIMTOLJ
 70
     0
  9
$DIMTZIN
 70
     0
  9
$DIMALTZ
 70
     0
  9
$DIMALTTZ
 70
     0
  9
$DIMUPT
 70
     0
  9
$DIMDEC
 70
     2
  9
$DIMTDEC
 70
     2
  9
$DIMALTU
 70
     2
  9
$DIMALTTD
 70
     3
  9
$DIMTXSTY
  7
Standard
  9
$DIMAUNIT
 70
     0
  9
$DIMADEC
 70
     2
  9
$DIMALTRND
 40
0.0
  9
$DIMAZIN
 70
     0
  9
$DIMDSEP
 70
    44
  9
$DIMATFIT
 70
     3
  9
$DIMFRAC
 70
     0
  9
$DIMLDRBLK
  1

  9
$DIMLUNIT
 70
     2
  9
$DIMLWD
 70
    -2
  9
$DIMLWE
 70
    -2
  9
$DIMTMOVE
 70
     0
  9
$LUNITS
 70
     2
  9
$LUPREC
 70
     2
  9
$SKETCHINC
 40
1.0
  9
$FILLETRAD
 40
10.0
  9
$AUNITS
 70
     0
  9
$AUPREC
 70
     2
  9
$MENU
  1
.
  9
$ELEVATION
 40
0.0
  9
$PELEVATION
 40
0.0
  9
$THICKNESS
 40
0.0
  9
$LIMCHECK
 70
     0
  9
$CHAMFERA
 40
0.0
  9
$CHAMFERB
 40
0.0
  9
$CHAMFERC
 40
0.0
  9
$CHAMFERD
 40
0.0
  9
$SKPOLY
 70
     0
  9
$TDCREATE
 40
2458985.68266397
  9
$TDUCREATE
 40
2458985.55766397
  9
$TDUPDATE
 40
2458985.682664329
  9
$TDUUPDATE
 40
2458985.557664329
  9
$TDINDWG
 40
0.0000000116
  9
$TDUSRTIMER
 40
0.0000000116
  9
$USRTIMER
 70
     1
  9
$ANGBASE
 50
0.0
  9
$ANGDIR
 70
     0
  9
$PDMODE
 70
     0
  9
$PDSIZE
 40
-1.0
  9
$PLINEWID
 40
0.0
  9
$SPLFRAME
 70
     0
  9
$SPLINETYPE
 70
     6
  9
$SPLINESEGS
 70
     8
  9
$HANDSEED
  5
CB
  9
$SURFTAB1
 70
     6
  9
$SURFTAB2
 70
     6
  9
$SURFTYPE
 70
     6
  9
$SURFU
 70
     6
  9
$SURFV
 70
     6
  9
$UCSBASE
  2

  9
$UCSNAME
  2

  9
$UCSORG
 10
0.0
 20
0.0
 30
0.0
  9
$UCSXDIR
 10
1.0
 20
0.0
 30
0.0
  9
$UCSYDIR
 10
0.0
 20
1.0
 30
0.0
  9
$UCSORTHOREF
  2

  9
$UCSORTHOVIEW
 70
     0
  9
$UCSORGTOP
 10
0.0
 20
0.0
 30
0.0
  9
$UCSORGBOTTOM
 10
0.0
 20
0.0
 30
0.0
  9
$UCSORGLEFT
 10
0.0
 20
0.0
 30
0.0
  9
$UCSORGRIGHT
 10
0.0
 20
0.0
 30
0.0
  9
$UCSORGFRONT
 10
0.0
 20
0.0
 30
0.0
  9
$UCSORGBACK
 10
0.0
 20
0.0
 30
0.0
  9
$PUCSBASE
  2

  9
$PUCSNAME
  2

  9
$PUCSORG
 10
0.0
 20
0.0
 30
0.0
  9
$PUCSXDIR
 10
1.0
 20
0.0
 30
0.0
  9
$PUCSYDIR
 10
0.0
 20
1.0
 30
0.0
  9
$PUCSORTHOREF
  2

  9
$PUCSORTHOVIEW
 70
     0
  9
$PUCSORGTOP
 10
0.0
 20
0.0
 30
0.0
  9
$PUCSORGBOTTOM
 10
0.0
 20
0.0
 30
0.0
  9
$PUCSORGLEFT
 10
0.0
 20
0.0
 30
0.0
  9
$PUCSORGRIGHT
 10
0.0
 20
0.0
 30
0.0
  9
$PUCSORGFRONT
 10
0.0
 20
0.0
 30
0.0
  9
$PUCSORGBACK
 10
0.0
 20
0.0
 30
0.0
  9
$USERI1
 70
     0
  9
$USERI2
 70
     0
  9
$USERI3
 70
     0
  9
$USERI4
 70
     0
  9
$USERI5
 70
     0
  9
$USERR1
 40
0.0
  9
$USERR2
 40
0.0
  9
$USERR3
 40
0.0
  9
$USERR4
 40
0.0
  9
$USERR5
 40
0.0
  9
$WORLDVIEW
 70
     1
  9
$SHADEDGE
 70
     3
  9
$SHADEDIF
 70
    70
  9
$TILEMODE
 70
     1
  9
$MAXACTVP
 70
    64
  9
$PINSBASE
 10
0.0
 20
0.0
 30
0.0
  9
$PLIMCHECK
 70
     0
  9
$PEXTMIN
 10
1.0000000000E+20
 20
1.0000000000E+20
 30
1.0000000000E+20
  9
$PEXTMAX
 10
-1.0000000000E+20
 20
-1.0000000000E+20
 30
-1.0000000000E+20
  9
$PLIMMIN
 10
0.0
 20
0.0
  9
$PLIMMAX
 10
420.0
 20
297.0
  9
$UNITMODE
 70
     0
  9
$VISRETAIN
 70
     1
  9
$PLINEGEN
 70
     0
  9
$PSLTSCALE
 70
     1
  9
$TREEDEPTH
 70
  3020
  9
$CMLSTYLE
  2
Standard
  9
$CMLJUST
 70
     0
  9
$CMLSCALE
 40
20.0
  9
$PROXYGRAPHICS
 70
     1
  9
$MEASUREMENT
 70
     1
  9
$CELWEIGHT
370
    -1
  9
$ENDCAPS
280
     0
  9
$JOINSTYLE
280
     0
  9
$LWDISPLAY
290
     1
  9
$INSUNITS
 70
     4
  9
$HYPERLINKBASE
  1

  9
$STYLESHEET
  1

  9
$XEDIT
290
     1
  9
$CEPSNTYPE
380
     0
  9
$PSTYLEMODE
290
     1
  9
$FINGERPRINTGUID
  2
{59523088-2b2b-4933-8a07-40c104878720}
  9
$VERSIONGUID
  2
{FAEB1C32-E019-11D5-929B-00C0DF256EC4}
  9
$EXTNAMES
290
     1
  9
$PSVPSCALE
 40
0.0
  9
$OLESTARTUP
290
     0
  0
ENDSEC
  0
SECTION
  2
CLASSES
  0
CLASS
  1
ACDBDICTIONARYWDFLT
  2
AcDbDictionaryWithDefault
  3
ObjectDBX Classes
 90
        0
280
     0
281
     0
  0
CLASS
  1
VISUALSTYLE
  2
AcDbVisualStyle
  3
ObjectDBX Classes
 90
     4095
280
     0
281
     0
  0
CLASS
  1
MATERIAL
  2
AcDbMaterial
  3
ObjectDBX Classes
 90
     1153
280
     0
281
     0
  0
CLASS
  1
SCALE
  2
AcDbScale
  3
ObjectDBX Classes
 90
     1153
280
     0
281
     0
  0
CLASS
  1
TABLESTYLE
  2
AcDbTableStyle
  3
ObjectDBX Classes
 90
     4095
280
     0
281
     0
  0
CLASS
  1
MLEADERSTYLE
  2
AcDbMLeaderStyle
  3
ACDB_MLEADERSTYLE_CLASS
 90
     4095
280
     0
281
     0
  0
CLASS
  1
SUN
  2
AcDbSun
  3
SCENEOE
 90
     1153
280
     0
281
     0
  0
CLASS
  1
ACDBPLACEHOLDER
  2
AcDbPlaceHolder
  3
ObjectDBX Classes
 90
        0
280
     0
281
     0
  0
CLASS
  1
LAYOUT
  2
AcDbLayout
  3
ObjectDBX Classes
 90
        0
280
     0
281
     0
  0
ENDSEC
  0
SECTION
  2
TABLES
  0
TABLE
  2
VPORT
  5
8
330
0
100
AcDbSymbolTable
 70
     1
  0
VPORT
  5
29
330
8
100
AcDbSymbolTableRecord
100
AcDbViewportTableRecord
  2
*Active
 70
     0
 10
0.0
 20
0.0
 11
1.0
 21
1.0
 12
139.7
 22
107.95
 13
0.0
 23
0.0
 14
10.0
 24
10.0
 15
10.0
 25
10.0
 16
0.0
 26
0.0
 36
1.0
 17
0.0
 27
0.0
 37
0.0
 40
215.9
 41
1.2941176471
 42
50.0
 43
0.0
 44
0.0
 50
0.0
 51
0.0
 71
     0
 72
  2000
 73
     1
 74
     3
 75
     0
 76
     0
 77
     0
 78
     0
281
     0
 65
     1
110
0.0
120
0.0
130
0.0
111
1.0
121
0.0
131
0.0
112
0.0
122
1.0
132
0.0
 79
     0
146
0.0
  0
ENDTAB
  0
TABLE
  2
LTYPE
  5
5
330
0
100
AcDbSymbolTable
 70
     6
  0
LTYPE
  5
14
330
5
100
AcDbSymbolTableRecord
100
AcDbLinetypeTableRecord
  2
ByBlock
 70
     0
  3

 72
    65
 73
     0
 40
0.0
  0
LTYPE
  5
15
330
5
100
AcDbSymbolTableRecord
100
AcDbLinetypeTableRecord
  2
ByLayer
 70
     0
  3

 72
    65
 73
     0
 40
0.0
  0
LTYPE
  5
16
330
5
100
AcDbSymbolTableRecord
100
AcDbLinetypeTableRecord
  2
Continuous
 70
     0
  3
Solid line
 72
    65
 73
     0
 40
0.0
  0
LTYPE
  5
6E
330
5
100
AcDbSymbolTableRecord
100
AcDbLinetypeTableRecord
  2
HIDDEN
 70
     0
  3
Hidden __ __ __ __ __ __ __ __ __ __ __ __ __ __
 72
    65
 73
     2
 40
1.905
 49
1.27
 74
     0
 49
-0.635
 74
     0
  0
LTYPE
  5
6F
330
5
100
AcDbSymbolTableRecord
100
AcDbLinetypeTableRecord
  2
PHANTOM
 70
     0
  3
Phantom ______  __  __  ______  __  __  ______
 72
    65
 73
     6
 40
12.7
 49
6.35
 74
     0
 49
-1.27
 74
     0
 49
1.27
 74
     0
 49
-1.27
 74
     0
 49
1.27
 74
     0
 49
-1.27
 74
     0
  0
LTYPE
  5
70
330
5
100
AcDbSymbolTableRecord
100
AcDbLinetypeTableRecord
  2
CENTER
 70
     0
  3
Center ____ _ ____ _ ____ _ ____ _ ____ _ ____
 72
    65
 73
     4
 40
10.16
 49
6.35
 74
     0
 49
-1.27
 74
     0
 49
1.27
 74
     0
 49
-1.27
 74
     0
  0
LTYPE
  5
71
330
5
100
AcDbSymbolTableRecord
100
AcDbLinetypeTableRecord
  2
CENTERX2
 70
     0
  3
Center (2x) ________  __  ________  __  _____
 72
    65
 73
     4
 40
20.32
 49
12.7
 74
     0
 49
-2.54
 74
     0
 49
2.54
 74
     0
 49
-2.54
 74
     0
  0
LTYPE
  5
72
330
5
100
AcDbSymbolTableRecord
100
AcDbLinetypeTableRecord
  2
DOT2
 70
     0
  3
Dot (.5x) ........................................
 72
    65
 73
     2
 40
0.635
 49
0.0
 74
     0
 49
-0.635
 74
     0
  0
ENDTAB
  0
TABLE
  2
LAYER
  5
2
330
0
100
AcDbSymbolTable
 70
    17
  0
LAYER
  5
10
330
2
100
AcDbSymbolTableRecord
100
AcDbLayerTableRecord
  2
0
 70
     0
 62
     7
  6
Continuous
370
    -3
390
F
  0
LAYER
  5
73
330
2
100
AcDbSymbolTableRecord
100
AcDbLayerTableRecord
  2
FORMAT
 70
     0
 62
     7
  6
Continuous
370
    -3
390
F
  0
LAYER
  5
74
330
2
100
AcDbSymbolTableRecord
100
AcDbLayerTableRecord
  2
YARDIMCI_GEOMETRI
 70
     0
 62
    -6
  6
Continuous
290
     0
370
    -3
390
F
  0
LAYER
  5
75
330
2
100
AcDbSymbolTableRecord
100
AcDbLayerTableRecord
  2
SAYFA_CERCEVESI
 70
     0
 62
     7
  6
Continuous
370
    25
390
F
  0
LAYER
  5
76
330
2
100
AcDbSymbolTableRecord
100
AcDbLayerTableRecord
  2
ANTET
 70
     0
 62
     7
  6
Continuous
370
    -3
390
F
  0
LAYER
  5
77
330
2
100
AcDbSymbolTableRecord
100
AcDbLayerTableRecord
  2
OLCU
 70
     0
 62
   150
  6
Continuous
370
    -3
390
F
  0
LAYER
  5
78
330
2
100
AcDbSymbolTableRecord
100
AcDbLayerTableRecord
  2
METIN
 70
     0
 62
    96
  6
Continuous
370
    -3
390
F
  0
LAYER
  5
79
330
2
100
AcDbSymbolTableRecord
100
AcDbLayerTableRecord
  2
BALON
 70
     0
 62
     5
  6
Continuous
370
    -3
390
F
  0
LAYER
  5
7A
330
2
100
AcDbSymbolTableRecord
100
AcDbLayerTableRecord
  2
VURGU
 70
     0
 62
     7
  6
Continuous
370
    -3
390
F
  0
LAYER
  5
7B
330
2
100
AcDbSymbolTableRecord
100
AcDbLayerTableRecord
  2
SILIK
 70
     0
 62
     7
  6
Continuous
370
    -3
390
F
  0
LAYER
  5
7C
330
2
100
AcDbSymbolTableRecord
100
AcDbLayerTableRecord
  2
MODEL
 70
     0
 62
     7
  6
Continuous
370
    -3
390
F
  0
LAYER
  5
7D
330
2
100
AcDbSymbolTableRecord
100
AcDbLayerTableRecord
  2
DETAYLANDıRMA
 70
     0
 62
   190
  6
Continuous
370
    -3
390
F
  0
LAYER
  5
7E
330
2
100
AcDbSymbolTableRecord
100
AcDbLayerTableRecord
  2
TOLERANS
 70
     0
 62
   230
  6
Continuous
370
    -3
390
F
  0
LAYER
  5
7F
330
2
100
AcDbSymbolTableRecord
100
AcDbLayerTableRecord
  2
MERKEZ_CIZGILERI
 70
     0
 62
    30
  6
Continuous
370
    -3
390
F
  0
LAYER
  5
80
330
2
100
AcDbSymbolTableRecord
100
AcDbLayerTableRecord
  2
KESIT-DETAY_CIZGILERI
 70
     0
 62
     7
  6
Continuous
370
    -3
390
F
  0
LAYER
  5
81
330
2
100
AcDbSymbolTableRecord
100
AcDbLayerTableRecord
  2
\U+041E\U+0421\U+0415\U+0412\U+042B\U+0415
 70
     0
 62
     7
  6
Continuous
370
    -3
390
F
  0
LAYER
  5
82
330
2
100
AcDbSymbolTableRecord
100
AcDbLayerTableRecord
  2
\U+0412\U+041E\U+0414\U+042F\U+041D\U+042B\U+0415_\U+0417\U+041D\U+0410\U+041A\U+0418
 70
     0
 62
    11
  6
Continuous
370
    -3
390
F
  0
ENDTAB
  0
TABLE
  2
STYLE
  5
3
330
0
100
AcDbSymbolTable
 70
     1
  0
STYLE
  5
11
330
3
100
AcDbSymbolTableRecord
100
AcDbTextStyleTableRecord
  2
Standard
 70
     0
 40
0.0
 41
1.0
 50
0.0
 71
     0
 42
3.5
  3
txt
  4

  0
ENDTAB
  0
TABLE
  2
VIEW
  5
6
330
0
100
AcDbSymbolTable
 70
     0
  0
ENDTAB
  0
TABLE
  2
UCS
  5
7
330
0
100
AcDbSymbolTable
 70
     0
  0
ENDTAB
  0
TABLE
  2
APPID
  5
9
330
0
100
AcDbSymbolTable
 70
     1
  0
APPID
  5
12
330
9
100
AcDbSymbolTableRecord
100
AcDbRegAppTableRecord
  2
ACAD
 70
     0
  0
ENDTAB
  0
TABLE
  2
DIMSTYLE
  5
A
330
0
100
AcDbSymbolTable
 70
     1
100
AcDbDimStyleTable
  0
DIMSTYLE
105
27
330
A
100
AcDbSymbolTableRecord
100
AcDbDimStyleTableRecord
  2
ISO-25
 70
     0
 41
2.5
 42
0.625
 43
3.75
 44
1.25
 73
     0
 74
     0
 77
     1
 78
     8
140
2.5
141
2.5
143
0.0393700787
147
0.625
171
     3
172
     1
178
     0
271
     2
272
     2
274
     3
278
    44
283
     0
284
     8
340
11
  0
ENDTAB
  0
TABLE
  2
BLOCK_RECORD
  5
1
330
0
100
AcDbSymbolTable
 70
     3
  0
BLOCK_RECORD
  5
1F
330
1
100
AcDbSymbolTableRecord
100
AcDbBlockTableRecord
  2
*Model_Space
340
22
  0
BLOCK_RECORD
  5
1B
330
1
100
AcDbSymbolTableRecord
100
AcDbBlockTableRecord
  2
*Paper_Space
340
1E
  0
BLOCK_RECORD
  5
23
330
1
100
AcDbSymbolTableRecord
100
AcDbBlockTableRecord
  2
*Paper_Space0
340
26
  0
BLOCK_RECORD
  5
88
330
1
100
AcDbSymbolTableRecord
100
AcDbBlockTableRecord
  2
SW_CENTERMARKSYMBOL_0
340
0
102
{BLKREFS
331
93
102
}
  0
BLOCK_RECORD
  5
B2
330
1
100
AcDbSymbolTableRecord
100
AcDbBlockTableRecord
  2
SW_CENTERMARKSYMBOL_1
340
0
102
{BLKREFS
331
BD
102
}
  0
ENDTAB
  0
ENDSEC
  0
SECTION
  2
BLOCKS
  0
BLOCK
  5
20
330
1F
100
AcDbEntity
  8
0
100
AcDbBlockBegin
  2
*Model_Space
 70
     0
 10
0.0
 20
0.0
 30
0.0
  3
*Model_Space
  1

  0
ENDBLK
  5
21
330
1F
100
AcDbEntity
  8
0
100
AcDbBlockEnd
  0
BLOCK
  5
1C
330
1B
100
AcDbEntity
 67
     1
  8
0
100
AcDbBlockBegin
  2
*Paper_Space
 70
     0
 10
0.0
 20
0.0
 30
0.0
  3
*Paper_Space
  1

  0
ENDBLK
  5
1D
330
1B
100
AcDbEntity
 67
     1
  8
0
100
AcDbBlockEnd
  0
BLOCK
  5
24
330
23
100
AcDbEntity
  8
0
100
AcDbBlockBegin
  2
*Paper_Space0
 70
     0
 10
0.0
 20
0.0
 30
0.0
  3
*Paper_Space0
  1

  0
ENDBLK
  5
25
330
23
100
AcDbEntity
  8
0
100
AcDbBlockEnd
  0
BLOCK
  5
89
330
88
100
AcDbEntity
  8
0
100
AcDbBlockBegin
  2
SW_CENTERMARKSYMBOL_0
 70
     0
 10
0.0
 20
0.0
 30
0.0
  3
SW_CENTERMARKSYMBOL_0
  1

  0
LINE
  5
8B
330
88
100
AcDbEntity
  8
FORMAT
 62
     0
100
AcDbLine
 10
0.0
 20
0.0
 30
0.0
 11
0.0
 21
2.5
 31
0.0
  0
LINE
  5
8C
330
88
100
AcDbEntity
  8
FORMAT
 62
     0
100
AcDbLine
 10
0.0
 20
0.0
 30
0.0
 11
-2.5
 21
0.0
 31
0.0
  0
LINE
  5
8D
330
88
100
AcDbEntity
  8
FORMAT
 62
     0
100
AcDbLine
 10
0.0
 20
0.0
 30
0.0
 11
0.0
 21
-2.5
 31
0.0
  0
LINE
  5
8E
330
88
100
AcDbEntity
  8
FORMAT
 62
     0
100
AcDbLine
 10
0.0
 20
0.0
 30
0.0
 11
2.5
 21
0.0
 31
0.0
  0
LINE
  5
8F
330
88
100
AcDbEntity
  8
FORMAT
 62
     0
100
AcDbLine
 10
0.0
 20
5.0
 30
0.0
 11
0.0
 21
82.5
 31
0.0
  0
LINE
  5
90
330
88
100
AcDbEntity
  8
FORMAT
 62
     0
100
AcDbLine
 10
-5.0
 20
0.0
 30
0.0
 11
-82.5
 21
0.0
 31
0.0
  0
LINE
  5
91
330
88
100
AcDbEntity
  8
FORMAT
 62
     0
100
AcDbLine
 10
0.0
 20
-5.0
 30
0.0
 11
0.0
 21
-82.5
 31
0.0
  0
LINE
  5
92
330
88
100
AcDbEntity
  8
FORMAT
 62
     0
100
AcDbLine
 10
5.0
 20
0.0
 30
0.0
 11
82.5
 21
0.0
 31
0.0
  0
ENDBLK
  5
8A
330
88
100
AcDbEntity
  8
0
100
AcDbBlockEnd
  0
BLOCK
  5
B3
330
B2
100
AcDbEntity
  8
0
100
AcDbBlockBegin
  2
SW_CENTERMARKSYMBOL_1
 70
     0
 10
0.0
 20
0.0
 30
0.0
  3
SW_CENTERMARKSYMBOL_1
  1

  0
LINE
  5
B5
330
B2
100
AcDbEntity
  8
FORMAT
 62
     0
100
AcDbLine
 10
0.0
 20
0.0
 30
0.0
 11
0.0
 21
2.5
 31
0.0
  0
LINE
  5
B6
330
B2
100
AcDbEntity
  8
FORMAT
 62
     0
100
AcDbLine
 10
0.0
 20
0.0
 30
0.0
 11
-2.5
 21
0.0
 31
0.0
  0
LINE
  5
B7
330
B2
100
AcDbEntity
  8
FORMAT
 62
     0
100
AcDbLine
 10
0.0
 20
0.0
 30
0.0
 11
0.0
 21
-2.5
 31
0.0
  0
LINE
  5
B8
330
B2
100
AcDbEntity
  8
FORMAT
 62
     0
100
AcDbLine
 10
0.0
 20
0.0
 30
0.0
 11
2.5
 21
0.0
 31
0.0
  0
LINE
  5
B9
330
B2
100
AcDbEntity
  8
FORMAT
 62
     0
100
AcDbLine
 10
0.0
 20
5.0
 30
0.0
 11
0.0
 21
57.5
 31
0.0
  0
LINE
  5
BA
330
B2
100
AcDbEntity
  8
FORMAT
 62
     0
100
AcDbLine
 10
-5.0
 20
0.0
 30
0.0
 11
-57.5
 21
0.0
 31
0.0
  0
LINE
  5
BB
330
B2
100
AcDbEntity
  8
FORMAT
 62
     0
100
AcDbLine
 10
0.0
 20
-5.0
 30
0.0
 11
0.0
 21
-57.5
 31
0.0
  0
LINE
  5
BC
330
B2
100
AcDbEntity
  8
FORMAT
 62
     0
100
AcDbLine
 10
5.0
 20
0.0
 30
0.0
 11
57.5
 21
0.0
 31
0.0
  0
ENDBLK
  5
B4
330
B2
100
AcDbEntity
  8
0
100
AcDbBlockEnd
  0
ENDSEC
  0
SECTION
  2
ENTITIES
  0
LINE
  5
83
330
1F
100
AcDbEntity
  8
0
  6
Continuous
 62
     7
370
    25
100
AcDbLine
 10
139.0623861236
 20
52.9520938855
 30
0.0
 11
275.8496141326
 21
52.9520938855
 31
0.0
  0
LINE
  5
84
330
1F
100
AcDbEntity
  8
0
  6
Continuous
 62
     7
370
    25
100
AcDbLine
 10
275.8496141326
 20
162.9520938855
 30
0.0
 11
139.0176414652
 21
162.9520938855
 31
0.0
  0
CIRCLE
  5
85
330
1F
100
AcDbEntity
  8
0
  6
Continuous
 62
     7
370
    25
100
AcDbCircle
 10
80.8496141326
 20
107.9520938855
 30
0.0
 40
65.40000000000002
  0
CIRCLE
  5
86
330
1F
100
AcDbEntity
  8
0
  6
Continuous
 62
     7
370
    25
100
AcDbCircle
 10
80.8496141326
 20
107.9520938855
 30
0.0
 40
80.00000000000001
  0
LINE
  5
87
330
1F
100
AcDbEntity
  8
0
  6
Continuous
 62
     7
370
    25
100
AcDbLine
 10
275.8496141326
 20
162.9520938855
 30
0.0
 11
275.8496141326
 21
52.9520938855
 31
0.0
  0
INSERT
  5
93
330
1F
100
AcDbEntity
  8
FORMAT
100
AcDbBlockReference
  2
SW_CENTERMARKSYMBOL_0
 10
80.8496141326
 20
107.9520938855
 30
0.0
  0
LINE
  5
94
330
1F
100
AcDbEntity
  8
0
  6
Continuous
 62
     7
370
    25
100
AcDbLine
 10
0.8496141326
 20
-81.8477613553
 30
0.0
 11
0.8496141326
 21
-498.8477613553
 31
0.0
  0
LINE
  5
95
330
1F
100
AcDbEntity
  8
0
  6
Continuous
 62
     7
370
    25
100
AcDbLine
 10
160.8496141326
 20
-235.3722770268
 30
0.0
 11
160.8496141326
 21
-81.8477613553
 31
0.0
  0
LINE
  5
96
330
1F
100
AcDbEntity
  8
0
  6
Continuous
 62
     7
370
    25
100
AcDbLine
 10
160.8496141326
 20
-498.8477613553
 30
0.0
 11
160.8496141326
 21
-345.3477613553
 31
0.0
  0
LINE
  5
97
330
1F
100
AcDbEntity
  8
0
  6
Continuous
 62
     7
370
    25
100
AcDbLine
 10
160.8496141326
 20
-345.3477613553
 30
0.0
 11
275.8496141326
 21
-345.3477613553
 31
0.0
  0
LINE
  5
98
330
1F
100
AcDbEntity
  8
0
  6
Continuous
 62
     7
370
    25
100
AcDbLine
 10
275.8496141326
 20
-235.3477613553
 30
0.0
 11
160.8327547869
 21
-235.3477613553
 31
0.0
  0
SPLINE
  5
99
330
1F
100
AcDbEntity
  8
0
  6
Continuous
 62
     7
370
    25
100
AcDbSpline
210
0.0
220
0.0
230
1.0
 70
     8
 71
     3
 72
    39
 73
    35
 74
     0
 42
0.000000001
 43
0.00000001
 40
0.0
 40
0.0
 40
0.0
 40
0.0
 40
0.0047454896112372
 40
0.0278375744709556
 40
0.0509304679228597
 40
0.0931939614813878
 40
0.1365247209892215
 40
0.1821553739130845
 40
0.2287643510281186
 40
0.2554432348699187
 40
0.2821228473201594
 40
0.3094375345951951
 40
0.3367504752488091
 40
0.3833577608365801
 40
0.4072748237987219
 40
0.4311869726443067
 40
0.4693757552132012
 40
0.5086431605762015
 40
0.5468497459890553
 40
0.5861192883219047
 40
0.6111444481089275
 40
0.6361747328179151
 40
0.661910224088789
 40
0.6876485106775356
 40
0.7389541241001062
 40
0.7651878555314807
 40
0.7914202573155938
 40
0.8206223705535903
 40
0.8498203185512212
 40
0.8801484761741668
 40
0.9104705232274436
 40
0.9545489580707891
 40
0.9772747920335032
 40
1.0
 40
1.0
 40
1.0
 40
1.0
 10
160.8327508414185
 20
-235.3722770268394
 30
0.0
 10
160.8379569355916
 20
-235.3647107935407
 30
0.0
 10
160.8684964680993
 20
-235.3203264201305
 30
0.0
 10
160.7177927943863
 20
-235.5392312186216
 30
0.0
 10
160.2728625775474
 20
-236.188981523157
 30
0.0
 10
159.2452218043002
 20
-237.7001234208342
 30
0.0
 10
157.3996211713475
 20
-240.4786964558055
 30
0.0
 10
154.9665633909218
 20
-244.2816335750849
 30
0.0
 10
152.5053155699377
 20
-248.355345850571
 30
0.0
 10
150.3247017876665
 20
-252.2135853131328
 30
0.0
 10
148.5364417641977
 20
-255.5704170836263
 30
0.0
 10
146.7439615837581
 20
-259.1906883245946
 30
0.0
 10
144.5839456388456
 20
-263.9841929589994
 30
0.0
 10
142.6656912235286
 20
-268.988993127157
 30
0.0
 10
141.1279949214074
 20
-274.1212338471764
 30
0.0
 10
139.9707476457199
 20
-278.9670407690151
 30
0.0
 10
139.0626087815659
 20
-284.906695895779
 30
0.0
 10
138.8234080878171
 20
-291.8486232115425
 30
0.0
 10
139.4265464690547
 20
-298.8052775237225
 30
0.0
 10
140.614881931993
 20
-304.7025504121595
 30
0.0
 10
142.0126144687376
 20
-309.603036383217
 30
0.0
 10
143.3862334001853
 20
-313.5908284083989
 30
0.0
 10
144.9155875493851
 20
-317.4283595617788
 30
0.0
 10
147.100505673638
 20
-322.3170564964386
 30
0.0
 10
149.4082891671999
 20
-326.8247703786679
 30
0.0
 10
151.6826971936334
 20
-330.8980498067974
 30
0.0
 10
153.4162771656633
 20
-333.8526326745163
 30
0.0
 10
155.1097768188834
 20
-336.6195738253537
 30
0.0
 10
156.7281680018307
 20
-339.1702383168055
 30
0.0
 10
158.1541546952569
 20
-341.355405149583
 30
0.0
 10
159.5164861561685
 20
-343.3960758724327
 30
0.0
 10
160.3689612777533
 20
-344.6472558239962
 30
0.0
 10
160.7887401559536
 20
-345.2594594280667
 30
0.0
 10
160.8293229933661
 20
-345.3183276497929
 30
0.0
 10
160.8496141325991
 20
-345.3477613552606
 30
0.0
  0
LINE
  5
9A
330
1F
100
AcDbEntity
  8
0
  6
Continuous
 62
     7
370
    25
100
AcDbLine
 10
160.8496141326
 20
-498.8477613553
 30
0.0
 11
0.8496141326
 21
-498.8477613553
 31
0.0
  0
LINE
  5
9B
330
1F
100
AcDbEntity
  8
0
  6
Continuous
 62
     7
370
    25
100
AcDbLine
 10
160.8496141326
 20
-81.8477613553
 30
0.0
 11
0.8496141326
 21
-81.8477613553
 31
0.0
  0
LINE
  5
9C
330
1F
100
AcDbEntity
  8
0
  6
Continuous
 62
     7
370
    25
100
AcDbLine
 10
275.8496141326
 20
-235.3477613553
 30
0.0
 11
275.8496141326
 21
-345.3477613553
 31
0.0
  0
LINE
  5
9D
330
1F
100
AcDbEntity
  8
0
  6
Continuous
 62
     7
370
    25
100
AcDbLine
 10
160.8496141326
 20
543.8832576139
 30
0.0
 11
160.8496141326
 21
697.3832576139
 31
0.0
  0
LINE
  5
9E
330
1F
100
AcDbEntity
  8
0
  6
Continuous
 62
     7
370
    25
100
AcDbLine
 10
160.8496141326
 20
280.3832576139
 30
0.0
 11
160.8496141326
 21
433.9078153006
 31
0.0
  0
LINE
  5
9F
330
1F
100
AcDbEntity
  8
0
  6
Continuous
 62
     7
370
    25
100
AcDbLine
 10
0.8496141326
 20
697.3832576139
 30
0.0
 11
0.8496141326
 21
280.3832576139
 31
0.0
  0
LINE
  5
A0
330
1F
100
AcDbEntity
  8
0
  6
Continuous
 62
     7
370
    25
100
AcDbLine
 10
160.8327406602
 20
433.8832576139
 30
0.0
 11
275.8496141326
 21
433.8832576139
 31
0.0
  0
LINE
  5
A1
330
1F
100
AcDbEntity
  8
0
  6
Continuous
 62
     7
370
    25
100
AcDbLine
 10
275.8496141326
 20
543.8832576139
 30
0.0
 11
160.8496141326
 21
543.8832576139
 31
0.0
  0
SPLINE
  5
A2
330
1F
100
AcDbEntity
  8
0
  6
Continuous
 62
     7
370
    25
100
AcDbSpline
210
0.0
220
0.0
230
1.0
 70
     8
 71
     3
 72
    38
 73
    34
 74
     0
 42
0.000000001
 43
0.00000001
 40
0.0
 40
0.0
 40
0.0
 40
0.0
 40
0.0225041572326626
 40
0.0451875390869634
 40
0.0684237250967593
 40
0.091843087372934
 40
0.1369529048989653
 40
0.1831842919489227
 40
0.2323472890916025
 40
0.2825617053431856
 40
0.311093766608612
 40
0.3398186287383989
 40
0.3692032046322906
 40
0.3988543129741788
 40
0.4387344097966275
 40
0.4796674148329104
 40
0.5195956327291076
 40
0.5608426465857169
 40
0.5987483572955166
 40
0.6374199125601214
 40
0.665770790639915
 40
0.6943315878057249
 40
0.7235039007019165
 40
0.7528761084548422
 40
0.7814624819676
 40
0.8102502192963235
 40
0.8397248132412278
 40
0.86946638479863
 40
0.9141062936847715
 40
0.9369799020498634
 40
0.960027231750464
 40
0.9822997163872327
 40
1.0
 40
1.0
 40
1.0
 40
1.0
 10
160.8496141325991
 20
543.8832576139254
 30
0.0
 10
160.8299565635571
 20
543.8546853129827
 30
0.0
 10
160.7904848712713
 20
543.7973131593711
 30
0.0
 10
160.4701300474327
 20
543.3303873265703
 30
0.0
 10
159.9567242922601
 20
542.5775973126912
 30
0.0
 10
159.0149842419855
 20
541.1840206371658
 30
0.0
 10
157.4031055568224
 20
538.7589578022595
 30
0.0
 10
154.8742280530753
 20
534.8037973221988
 30
0.0
 10
151.8434008021259
 20
529.7733462661074
 30
0.0
 10
148.9977328533911
 20
524.6017399711282
 30
0.0
 10
146.6303924678406
 20
519.8053798563149
 30
0.0
 10
144.7877145708
 20
515.6804854905131
 30
0.0
 10
143.0508040299587
 20
511.2465335522536
 30
0.0
 10
141.3232695903881
 20
505.9707900772724
 30
0.0
 10
139.8151443686403
 20
499.7380678349081
 30
0.0
 10
138.9121086419633
 20
492.6030298258983
 30
0.0
 10
138.9043759196604
 20
485.2639611927257
 30
0.0
 10
139.7850963191406
 20
478.2230653248193
 30
0.0
 10
141.369943901244
 20
471.5658732534012
 30
0.0
 10
143.2331987784074
 20
465.9853192316305
 30
0.0
 10
145.1602305373025
 20
461.2155668481446
 30
0.0
 10
147.0082575339711
 20
457.1664350050354
 30
0.0
 10
148.9342852775503
 20
453.3321285460867
 30
0.0
 10
150.8630291925289
 20
449.7741070762933
 30
0.0
 10
152.7354325240258
 20
446.52019815089
 30
0.0
 10
154.5172836748082
 20
443.5670885154833
 30
0.0
 10
156.1819033441993
 20
440.9126091829202
 30
0.0
 10
157.922726876401
 20
438.2212899537375
 30
0.0
 10
159.2279523974073
 20
436.2655284487105
 30
0.0
 10
160.0977370811776
 20
434.9816242740354
 30
0.0
 10
160.5553746782519
 20
434.3116848976156
 30
0.0
 10
160.8152139565281
 20
433.9332690066443
 30
0.0
 10
160.8273588320249
 20
433.9156272301449
 30
0.0
 10
160.8327366867533
 20
433.9078153006452
 30
0.0
  0
LINE
  5
A3
330
1F
100
AcDbEntity
  8
0
  6
Continuous
 62
     7
370
    25
100
AcDbLine
 10
0.8496141326
 20
697.3832576139
 30
0.0
 11
160.8496141326
 21
697.3832576139
 31
0.0
  0
LINE
  5
A4
330
1F
100
AcDbEntity
  8
0
  6
Continuous
 62
     7
370
    25
100
AcDbLine
 10
0.8496141326
 20
280.3832576139
 30
0.0
 11
160.8496141326
 21
280.3832576139
 31
0.0
  0
LINE
  5
A5
330
1F
100
AcDbEntity
  8
0
  6
Continuous
 62
     7
370
    25
100
AcDbLine
 10
275.8496141326
 20
543.8832576139
 30
0.0
 11
275.8496141326
 21
433.8832576139
 31
0.0
  0
LINE
  5
A6
330
1F
100
AcDbEntity
  8
0
  6
Continuous
 62
     7
370
    25
100
AcDbLine
 10
380.0024093899
 20
27.9520938855
 30
0.0
 11
797.0024093899
 21
27.9520938855
 31
0.0
  0
LINE
  5
A7
330
1F
100
AcDbEntity
  8
0
  6
Continuous
 62
     7
370
    25
100
AcDbLine
 10
797.0024093899
 20
187.9520938855
 30
0.0
 11
380.0024093899
 21
187.9520938855
 31
0.0
  0
LINE
  5
A8
330
1F
100
AcDbEntity
  8
0
  6
Continuous
 62
     7
370
    25
100
AcDbLine
 10
797.0024093899
 20
187.9520938855
 30
0.0
 11
797.0024093899
 21
27.9520938855
 31
0.0
  0
LINE
  5
A9
330
1F
100
AcDbEntity
  8
0
  6
Continuous
 62
     7
370
    25
100
AcDbLine
 10
380.0024093899
 20
187.9520938855
 30
0.0
 11
380.0024093899
 21
27.9520938855
 31
0.0
  0
LINE
  5
AA
330
1F
100
AcDbEntity
  8
0
  6
Continuous
 62
     7
370
    25
100
AcDbLine
 10
-80.6490182613
 20
187.9520938855
 30
0.0
 11
-497.6490182613
 21
187.9520938855
 31
0.0
  0
LINE
  5
AB
330
1F
100
AcDbEntity
  8
0
  6
Continuous
 62
     7
370
    25
100
AcDbLine
 10
-497.6490182613
 20
27.9520938855
 30
0.0
 11
-80.6490182613
 21
27.9520938855
 31
0.0
  0
CIRCLE
  5
AC
330
1F
100
AcDbEntity
  8
0
  6
Continuous
 62
     7
370
    25
100
AcDbCircle
 10
-289.1490182613
 20
107.9520938855
 30
0.0
 40
45.00000000000003
  0
CIRCLE
  5
AD
330
1F
100
AcDbEntity
  8
0
  6
Continuous
 62
     7
370
    25
100
AcDbCircle
 10
-289.1490182613
 20
107.9520938855
 30
0.0
 40
55.00000000000003
  0
LINE
  5
AE
330
1F
100
AcDbEntity
  8
0
  6
Continuous
 62
     7
370
    25
100
AcDbLine
 10
-497.6490182613
 20
107.9520938855
 30
0.0
 11
-497.6490182613
 21
187.9520938855
 31
0.0
  0
LINE
  5
AF
330
1F
100
AcDbEntity
  8
0
  6
Continuous
 62
     7
370
    25
100
AcDbLine
 10
-497.6490182613
 20
27.9520938855
 30
0.0
 11
-497.6490182613
 21
107.9520938855
 31
0.0
  0
LINE
  5
B0
330
1F
100
AcDbEntity
  8
0
  6
Continuous
 62
     7
370
    25
100
AcDbLine
 10
-80.6490182613
 20
107.9520938855
 30
0.0
 11
-80.6490182613
 21
187.9520938855
 31
0.0
  0
LINE
  5
B1
330
1F
100
AcDbEntity
  8
0
  6
Continuous
 62
     7
370
    25
100
AcDbLine
 10
-80.6490182613
 20
27.9520938855
 30
0.0
 11
-80.6490182613
 21
107.9520938855
 31
0.0
  0
INSERT
  5
BD
330
1F
100
AcDbEntity
  8
FORMAT
100
AcDbBlockReference
  2
SW_CENTERMARKSYMBOL_1
 10
-289.1490182613
 20
107.9520938855
 30
0.0
  0
LINE
  5
BE
330
1F
100
AcDbEntity
  8
0
  6
Continuous
 62
     7
370
    25
100
AcDbLine
 10
752.6550212312
 20
-277.9149259641
 30
0.0
 11
700.2374800342
 21
-247.6549235333
 31
0.0
  0
LINE
  5
BF
330
1F
100
AcDbEntity
  8
0
  6
Continuous
 62
     7
370
    25
100
AcDbLine
 10
590.2285398976
 20
-184.1481141729
 30
0.0
 11
457.7914934764
 21
-107.6938346491
 31
0.0
  0
LINE
  5
C0
330
1F
100
AcDbEntity
  8
0
  6
Continuous
 62
     7
370
    25
100
AcDbLine
 10
377.7979948656
 20
-246.26165263
 30
0.0
 11
672.6615226204
 21
-416.482743945
 31
0.0
  0
LINE
  5
C1
330
1F
100
AcDbEntity
  8
0
  6
Continuous
 62
     7
370
    25
100
AcDbLine
 10
642.1566679154
 20
-281.1842626774
 30
0.0
 11
730.6100955273
 21
-230.1211858253
 31
0.0
  0
LINE
  5
C2
330
1F
100
AcDbEntity
  8
0
  6
Continuous
 62
     7
370
    25
100
AcDbLine
 10
675.6145652323
 20
-134.8558109634
 30
0.0
 11
587.158004918
 21
-185.9206962862
 31
0.0
  0
SPLINE
  5
C3
330
1F
100
AcDbEntity
  8
0
  6
Continuous
 62
     7
370
    25
100
AcDbSpline
210
0.0
220
0.0
230
1.0
 70
     8
 71
     3
 72
    29
 73
    25
 74
     0
 42
0.000000001
 43
0.00000001
 40
0.0
 40
0.0
 40
0.0
 40
0.0
 40
0.029959916089877
 40
0.0601584349663416
 40
0.0910929052468753
 40
0.1222712391617423
 40
0.1823262029596315
 40
0.2438743188217544
 40
0.309325304339388
 40
0.3761760502636152
 40
0.4141609502332403
 40
0.4524025271207599
 40
0.4915223847993164
 40
0.5309970786841188
 40
0.5840896847348174
 40
0.6385840336462096
 40
0.6917407035637196
 40
0.746653094253402
 40
0.7971171885294792
 40
0.8486008561387247
 40
0.8863445458740656
 40
0.92436770211587
 40
0.9632049728246355
 40
1.0
 40
1.0
 40
1.0
 40
1.0
 10
582.9041775780609
 20
-206.9807417490058
 30
0.0
 10
582.9104812454403
 20
-208.0992257598083
 30
0.0
 10
582.9231387830303
 20
-210.3451014632949
 30
0.0
 10
583.0267801373926
 20
-213.9807986921137
 30
0.0
 10
583.1960503700337
 20
-217.8030390604214
 30
0.0
 10
583.5155471117346
 20
-223.0253496073753
 30
0.0
 10
584.0905551383897
 20
-229.7733751151234
 30
0.0
 10
585.0990895027537
 20
-238.1370145913255
 30
0.0
 10
586.5130370555037
 20
-246.7071494771161
 30
0.0
 10
588.1577238317266
 20
-253.9833638099283
 30
0.0
 10
589.8753001562582
 20
-259.822041153395
 30
0.0
 10
591.4890708898838
 20
-264.3362913967338
 30
0.0
 10
593.3961671802941
 20
-268.6669608355658
 30
0.0
 10
595.905129727267
 20
-273.2095719070925
 30
0.0
 10
599.2459249430575
 20
-277.7428963709417
 30
0.0
 10
603.6526135196473
 20
-281.8064688245994
 30
0.0
 10
608.8366600830993
 20
-284.8120594245457
 30
0.0
 10
614.438054292025
 20
-286.5639964059975
 30
0.0
 10
620.2661763599231
 20
-287.1931357903099
 30
0.0
 10
625.52933621965
 20
-286.8910362125254
 30
0.0
 10
630.2658276684316
 20
-286.010857434302
 30
0.0
 10
634.4317108500827
 20
-284.7847218395464
 30
0.0
 10
638.43897714623
 20
-283.2025900259793
 30
0.0
 10
640.9360361678607
 20
-281.8376712149981
 30
0.0
 10
642.1508525509377
 20
-281.1736397608809
 30
0.0
  0
SPLINE
  5
C4
330
1F
100
AcDbEntity
  8
0
  6
Continuous
 62
     7
370
    25
100
AcDbSpline
210
0.0
220
0.0
230
1.0
 70
     8
 71
     3
 72
    16
 73
    12
 74
     0
 42
0.000000001
 43
0.00000001
 40
0.0
 40
0.0
 40
0.0
 40
0.0
 40
0.0561326001653936
 40
0.1618455036254247
 40
0.2787021749029946
 40
0.3965193426852875
 40
0.5177084705936029
 40
0.6402363531112729
 40
0.8173598424389842
 40
0.9083160612859096
 40
1.0
 40
1.0
 40
1.0
 40
1.0
 10
587.1796350452462
 20
-185.9580302931304
 30
0.0
 10
587.004281547884
 20
-186.0509635628714
 30
0.0
 10
586.4986898772787
 20
-186.3189153734139
 30
0.0
 10
585.7830671373889
 20
-187.1511987266755
 30
0.0
 10
585.0169358791532
 20
-188.4925471852571
 30
0.0
 10
584.3604072490339
 20
-190.3589911502158
 30
0.0
 10
583.8219534101052
 20
-192.7259310592308
 30
0.0
 10
583.3421183799245
 20
-196.0504430786551
 30
0.0
 10
583.0599220973696
 20
-199.7953196436847
 30
0.0
 10
582.9236119896617
 20
-203.7080089452964
 30
0.0
 10
582.9106729002959
 20
-205.8869368741254
 30
0.0
 10
582.9041775780609
 20
-206.9807417490058
 30
0.0
  0
LWPOLYLINE
  5
C5
330
1F
100
AcDbEntity
  8
0
  6
Continuous
 62
     7
370
    25
100
AcDbPolyline
 90
       95
 70
   128
 43
0.0
 10
474.3632866659
 20
-144.3214191666
 10
474.2369622444
 20
-140.031231792
 10
473.8585531754
 20
-135.9060565082
 10
473.2297495258
 20
-131.9643173494
 10
472.3533596851
 20
-128.2236190796
 10
471.2332978233
 20
-124.7006685653
 10
469.8745664084
 20
-121.4112001588
 10
468.2832338649
 20
-118.3699054244
 10
466.4664074701
 20
-115.5903675228
 10
464.4322016118
 20
-113.0850005449
 10
462.1897015471
 20
-110.8649940679
 10
459.7489228258
 20
-108.9402631796
 10
457.1207665581
 20
-107.3194041954
 10
454.3169707278
 20
-106.0096562649
 10
451.3500577679
 20
-105.0168690404
 10
448.2332786317
 20
-104.3454765507
 10
444.9805536116
 20
-103.9984773975
 10
441.606410167
 20
-103.9774213633
 10
438.1259180418
 20
-104.2824024896
 10
434.5546219585
 20
-104.9120586564
 10
430.9084721926
 20
-105.8635776667
 10
427.2037533339
 20
-107.1327098053
 10
423.4570115562
 20
-108.7137868203
 10
419.6849807178
 20
-110.5997472377
 10
415.9045076242
 20
-112.7821679005
 10
412.1324767858
 20
-115.2513015883
 10
408.3857350081
 20
-117.9961205506
 10
404.6810161494
 20
-121.0043657596
 10
401.0348663835
 20
-124.262601662
 10
397.4635703002
 20
-127.7562761853
 10
393.983078175
 20
-131.4697857309
 10
390.6089347304
 20
-135.3865448638
 10
387.3562097103
 20
-139.4890603868
 10
384.2394305742
 20
-143.7590094697
 10
381.2725176142
 20
-148.1773214834
 10
378.4687217839
 20
-152.7242631739
 10
375.8405655162
 20
-157.3795267957
 10
373.3997867949
 20
-162.1223208115
 10
371.1572867302
 20
-166.9314627519
 10
369.1230808719
 20
-171.7854738214
 10
367.3062544771
 20
-176.6626748285
 10
365.7149219336
 20
-181.5412830093
 10
364.3561905187
 20
-186.3995093155
 10
363.2361286569
 20
-191.215655729
 10
362.3597388162
 20
-195.9682121708
 10
361.7309351666
 20
-200.6359525701
 10
361.3525260976
 20
-205.1980296653
 10
361.2262016761
 20
-209.6340681124
 10
361.3525260976
 20
-213.9242554871
 10
361.7309351666
 20
-218.0494307709
 10
362.3597388162
 20
-221.9911699297
 10
363.2361286569
 20
-225.7318681995
 10
364.3561905187
 20
-229.2548187137
 10
365.7149219336
 20
-232.5442871203
 10
367.3062544771
 20
-235.5855818546
 10
369.1230808719
 20
-238.3651197562
 10
371.1572867302
 20
-240.8704867341
 10
373.3997867949
 20
-243.0904932111
 10
375.8405655162
 20
-245.0152240995
 10
378.4687217839
 20
-246.6360830837
 10
381.2725176142
 20
-247.9458310141
 10
384.2394305742
 20
-248.9386182386
 10
387.3562097103
 20
-249.6100107284
 10
390.6089347304
 20
-249.9570098815
 10
393.983078175
 20
-249.9780659157
 10
397.4635703002
 20
-249.6730847895
 10
401.0348663835
 20
-249.0434286226
 10
404.6810161494
 20
-248.0919096124
 10
408.3857350081
 20
-246.8227774737
 10
412.1324767858
 20
-245.2417004588
 10
415.9045076242
 20
-243.3557400414
 10
419.6849807178
 20
-241.1733193786
 10
423.4570115562
 20
-238.7041856908
 10
427.2037533339
 20
-235.9593667284
 10
430.9084721926
 20
-232.9511215194
 10
434.5546219585
 20
-229.692885617
 10
438.1259180418
 20
-226.1992110937
 10
441.606410167
 20
-222.4857015481
 10
444.9805536116
 20
-218.5689424153
 10
448.2332786317
 20
-214.4664268923
 10
451.3500577679
 20
-210.1964778093
 10
454.3169707278
 20
-205.7781657956
 10
457.1207665581
 20
-201.2312241052
 10
459.7489228258
 20
-196.5759604833
 10
462.1897015471
 20
-191.8331664675
 10
464.4322016118
 20
-187.0240245272
 10
466.4664074701
 20
-182.1700134576
 10
468.2832338649
 20
-177.2928124506
 10
469.8745664084
 20
-172.4142042697
 10
471.2332978233
 20
-167.5559779636
 10
472.3533596851
 20
-162.7398315501
 10
473.2297495258
 20
-157.9872751083
 10
473.8585531754
 20
-153.3195347089
 10
474.2369622444
 20
-148.7574576138
 10
474.3632866659
 20
-144.3214191666
  0
LWPOLYLINE
  5
C6
330
1F
100
AcDbEntity
  8
0
  6
Continuous
 62
     7
370
    25
100
AcDbPolyline
 90
       13
 70
   128
 43
0.0
 10
769.2268144207
 20
-314.5425104816
 10
769.1004899992
 20
-310.252323107
 10
768.7220809302
 20
-306.1271478232
 10
768.0932772806
 20
-302.1854086644
 10
767.2168874399
 20
-298.4447103946
 10
766.0968255781
 20
-294.9217598804
 10
764.7380941632
 20
-291.6322914738
 10
763.1467616197
 20
-288.5909967395
 10
761.3299352249
 20
-285.8114588378
 10
759.2957293666
 20
-283.30609186
 10
757.0532293019
 20
-281.0860853829
 10
754.6124505806
 20
-279.1613544946
 10
752.6550212312
 20
-277.9149259641
  0
LWPOLYLINE
  5
C7
330
1F
100
AcDbEntity
  8
0
  6
Continuous
 62
     7
370
    25
100
AcDbPolyline
 90
       37
 70
   128
 43
0.0
 10
672.6615226204
 20
-416.482743945
 10
673.3322495387
 20
-416.8571743987
 10
676.136045369
 20
-418.1669223292
 10
679.1029583289
 20
-419.1597095536
 10
682.2197374651
 20
-419.8311020434
 10
685.4724624852
 20
-420.1781011966
 10
688.8466059298
 20
-420.1991572307
 10
692.327098055
 20
-419.8941761045
 10
695.8983941383
 20
-419.2645199376
 10
699.5445439042
 20
-418.3130009274
 10
703.2492627629
 20
-417.0438687887
 10
706.9960045406
 20
-415.4627917738
 10
710.768035379
 20
-413.5768313564
 10
714.5485084726
 20
-411.3944106936
 10
718.320539311
 20
-408.9252770058
 10
722.0672810887
 20
-406.1804580435
 10
725.7719999474
 20
-403.1722128344
 10
729.4181497133
 20
-399.913976932
 10
732.9894457966
 20
-396.4203024088
 10
736.4699379218
 20
-392.7067928632
 10
739.8440813664
 20
-388.7900337303
 10
743.0968063865
 20
-384.6875182073
 10
746.2135855226
 20
-380.4175691244
 10
749.1804984826
 20
-375.9992571107
 10
751.9842943129
 20
-371.4523154202
 10
754.6124505806
 20
-366.7970517984
 10
757.0532293019
 20
-362.0542577826
 10
759.2957293666
 20
-357.2451158422
 10
761.3299352249
 20
-352.3911047726
 10
763.1467616197
 20
-347.5139037656
 10
764.7380941632
 20
-342.6352955848
 10
766.0968255781
 20
-337.7770692786
 10
767.2168874399
 20
-332.9609228651
 10
768.0932772806
 20
-328.2083664233
 10
768.7220809302
 20
-323.540626024
 10
769.1004899992
 20
-318.9785489288
 10
769.2268144207
 20
-314.5425104816
  0
LWPOLYLINE
  5
C8
330
1F
100
AcDbEntity
  8
0
  6
Continuous
 62
     7
370
    25
100
AcDbPolyline
 90
       86
 70
   128
 43
0.0
 10
464.0395276606
 20
-150.2811983829
 10
463.9132411751
 20
-146.4102463997
 10
463.5350714515
 20
-142.7062434866
 10
462.9070839218
 20
-139.1894196228
 10
462.032708436
 20
-135.8789824809
 10
460.9167205299
 20
-132.7930125206
 10
459.5652153424
 20
-129.9483642397
 10
457.9855743261
 20
-127.3605741206
 10
456.1864249326
 20
-125.0437757756
 10
454.1775934919
 20
-123.0106227538
 10
451.9700515448
 20
-121.272219432
 10
449.5758559198
 20
-119.8380603664
 10
447.0080828832
 20
-118.7159784364
 10
444.2807567209
 20
-117.9121020644
 10
441.4087731427
 20
-117.4308217444
 10
438.4078179269
 20
-117.2747660626
 10
435.2942812503
 20
-117.444787341
 10
432.0851681705
 20
-117.9399569824
 10
428.7980057503
 20
-118.7575705419
 10
425.450747331
 20
-119.8931624978
 10
422.0616744773
 20
-121.3405306405
 10
418.64929713
 20
-123.0917699473
 10
415.2322525107
 20
-125.1373157562
 10
411.8292033322
 20
-127.4659960054
 10
408.4587358692
 20
-130.065092251
 10
405.139258446
 20
-132.9204091304
 10
401.8889008973
 20
-136.0163518931
 10
398.7254155489
 20
-139.3360115733
 10
395.6660802606
 20
-142.861257341
 10
392.7276040611
 20
-146.5728355262
 10
389.9260358883
 20
-150.4504747759
 10
387.2766769361
 20
-154.4729967693
 10
384.7939970843
 20
-158.618431886
 10
382.4915558693
 20
-162.8641391971
 10
380.3819284267
 20
-167.1869301215
 10
378.47663681
 20
-171.5631950741
 10
376.7860870614
 20
-175.9690324133
 10
375.3195123772
 20
-180.3803789835
 10
374.0849226798
 20
-184.7731415394
 10
373.0890608702
 20
-189.1233283352
 10
372.337366
 20
-193.4071801591
 10
371.8339435661
 20
-197.601300098
 10
371.5815430872
 20
-201.6827813231
 10
371.5815430872
 20
-205.6293321995
 10
371.8339435661
 20
-209.4193980347
 10
372.337366
 20
-213.0322788034
 10
373.0890608702
 20
-216.4482422038
 10
374.0849226798
 20
-219.6486314283
 10
375.3195123772
 20
-222.6159670606
 10
376.7860870614
 20
-225.3340425428
 10
378.47663681
 20
-227.7880126888
 10
380.3819284267
 20
-229.964474765
 10
382.4915558693
 20
-231.8515416899
 10
384.7939970843
 20
-233.4389069586
 10
387.2766769361
 20
-234.7179009324
 10
389.9260358883
 20
-235.6815381897
 10
392.7276040611
 20
-236.324555678
 10
395.6660802606
 20
-236.6434414587
 10
398.7254155489
 20
-236.6364538883
 10
401.8889008973
 20
-236.3036311304
 10
405.139258446
 20
-235.6467909476
 10
408.4587358692
 20
-234.6695207732
 10
411.8292033322
 20
-233.3771581179
 10
415.2322525107
 20
-231.7767614185
 10
418.64929713
 20
-229.8770714867
 10
422.0616744773
 20
-227.6884637702
 10
425.450747331
 20
-225.2228916853
 10
428.7980057503
 20
-222.4938213319
 10
432.0851681705
 20
-219.5161579458
 10
435.2942812503
 20
-216.3061644919
 10
438.4078179269
 20
-212.8813728413
 10
441.4087731427
 20
-209.2604880183
 10
444.2807567209
 20
-205.4632860403
 10
447.0080828832
 20
-201.5105059076
 10
449.5758559198
 20
-197.4237363347
 10
451.9700515448
 20
-193.2252978398
 10
454.1775934919
 20
-188.938120838
 10
456.1864249326
 20
-184.5856204035
 10
457.9855743261
 20
-180.1915683843
 10
459.5652153424
 20
-175.7799635689
 10
460.9167205299
 20
-171.3749006128
 10
462.032708436
 20
-167.0004384424
 10
462.9070839218
 20
-162.6804688531
 10
463.5350714515
 20
-158.4385860209
 10
463.9132411751
 20
-154.2979576387
 10
464.0395276606
 20
-150.2811983829
  0
LWPOLYLINE
  5
C9
330
1F
100
AcDbEntity
  8
0
  6
Continuous
 62
     7
370
    25
100
AcDbPolyline
 90
       72
 70
   128
 43
0.0
 10
734.9321355332
 20
-200.8576809103
 10
734.8076189741
 20
-197.5383307245
 10
734.4350438076
 20
-194.1011951954
 10
733.8173259398
 20
-190.5731745687
 10
732.9592998502
 20
-186.9818803893
 10
731.8676807566
 20
-183.3554194035
 10
730.5510120583
 20
-179.7221735854
 10
729.0195984731
 20
-176.1105780096
 10
727.2854253888
 20
-172.5488983084
 10
725.3620650609
 20
-169.0650094544
 10
723.2645703918
 20
-165.6861776016
 10
721.0093571212
 20
-162.4388466904
 10
718.6140753506
 20
-159.3484314882
 10
716.0974714077
 20
-156.4391186839
 10
713.4792411302
 20
-153.733677595
 10
710.7798757202
 20
-151.253281966
 10
708.0205013718
 20
-149.0173442558
 10
705.2227139307
 20
-147.0433637087
 10
702.408409877
 20
-145.3467893987
 10
699.5996149556
 20
-143.9408993203
 10
696.818311795
 20
-142.8366964693
 10
694.0862678637
 20
-142.0428227304
 10
691.4248651096
 20
-141.5654912417
 10
688.8549326176
 20
-141.4084377695
 10
686.396583594
 20
-141.5728914701
 10
684.0690579531
 20
-142.0575652703
 10
681.8905717387
 20
-142.8586659405
 10
679.8781745592
 20
-143.9699237817
 10
678.047616151
 20
-145.3826416947
 10
676.4132231157
 20
-147.0857632464
 10
674.9877867947
 20
-149.0659592014
 10
673.7824631599
 20
-151.3077318415
 10
672.8066855031
 20
-153.7935362564
 10
672.0680906073
 20
-156.503917656
 10
671.572458979
 20
-159.4176636311
 10
671.3236696078
 20
-162.5119701689
 10
671.3236696078
 20
-165.7626201252
 10
671.572458979
 20
-169.1441727567
 10
672.0680906073
 20
-172.6301628292
 10
672.8066855031
 20
-176.193307744
 10
673.7824631599
 20
-179.8057210609
 10
674.9877867947
 20
-183.4391307479
 10
676.4132231157
 20
-187.0651004479
 10
678.047616151
 20
-190.6552520315
 10
679.8781745592
 20
-194.1814876951
 10
681.8905717387
 20
-197.6162098635
 10
684.0690579531
 20
-200.9325371787
 10
686.396583594
 20
-204.104514883
 10
688.8549326176
 20
-207.1073179503
 10
691.4248651096
 20
-209.9174453751
 10
694.0862678637
 20
-212.5129041002
 10
696.818311795
 20
-214.8733811421
 10
699.5996149556
 20
-216.9804025675
 10
702.408409877
 20
-218.8174780768
 10
705.2227139307
 20
-220.3702300635
 10
708.0205013718
 20
-221.6265061379
 10
710.7798757202
 20
-222.5764742364
 10
713.4792411302
 20
-223.2126995707
 10
716.0974714077
 20
-223.5302028149
 10
718.6140753506
 20
-223.5264990756
 10
721.0093571212
 20
-223.2016173396
 10
723.2645703918
 20
-222.5581002469
 10
725.3620650609
 20
-221.6009841914
 10
727.2854253888
 20
-220.3377599038
 10
729.0195984731
 20
-218.778313827
 10
730.5510120583
 20
-216.9348507409
 10
731.8676807566
 20
-214.8217982436
 10
732.9592998502
 20
-212.4556938359
 10
733.8173259398
 20
-209.8550554928
 10
734.4350438076
 20
-207.0402367355
 10
734.8076189741
 20
-204.0332673371
 10
734.9321355332
 20
-200.8576809103
  0
LWPOLYLINE
  5
CA
330
1F
100
AcDbEntity
  8
0
  6
Continuous
 62
     7
370
    25
100
AcDbPolyline
 90
       79
 70
   128
 43
0.0
 10
742.003203345
 20
-204.9397214694
 10
741.8770922276
 20
-201.2531860168
 10
741.4995767544
 20
-197.4449543643
 10
740.8731052579
 20
-193.5397243555
 10
740.0017406465
 20
-189.5628229057
 10
738.8911340538
 20
-185.5400417468
 10
737.5484881898
 20
-181.4974701583
 10
735.9825106282
 20
-177.4613257682
 10
734.2033573343
 20
-173.4577845217
 10
732.2225668
 20
-169.51281092
 10
730.0529852121
 20
-165.6519896307
 10
727.7086831395
 20
-161.9003595615
 10
725.2048642809
 20
-158.2822514729
 10
722.5577668624
 20
-154.8211301843
 10
719.7845583265
 20
-151.5394423954
 10
716.9032239946
 20
-148.4584711108
 10
713.9324504257
 20
-145.5981976115
 10
710.8915042262
 20
-142.9771718687
 10
707.8001070992
 20
-140.6123922402
 10
704.6783079414
 20
-138.5191952294
 10
701.5463528182
 20
-136.7111560219
 10
698.4245536603
 20
-135.200000446
 10
695.3331565333
 20
-133.9955289253
 10
692.2922103339
 20
-133.1055529199
 10
689.3214367649
 20
-132.5358442657
 10
686.4401024331
 20
-132.290097742
 10
683.6668938971
 20
-132.3699071092
 10
681.0197964786
 20
-132.7747547729
 10
678.51597762
 20
-133.5020151408
 10
676.1716755475
 20
-134.5469716503
 10
674.0020939595
 20
-135.9028473573
 10
672.0213034253
 20
-137.5608488877
 10
670.2421501314
 20
-139.5102234654
 10
668.6761725698
 20
-141.738328648
 10
667.3335267058
 20
-144.2307143186
 10
666.2229201131
 20
-146.9712163997
 10
665.3515555016
 20
-149.9420616835
 10
664.7250840052
 20
-153.1239830986
 10
664.3475685319
 20
-156.4963446634
 10
664.2214574145
 20
-160.0372753192
 10
664.3475685319
 20
-163.7238107719
 10
664.7250840052
 20
-167.5320424244
 10
665.3515555016
 20
-171.4372724331
 10
666.2229201131
 20
-175.4141738829
 10
667.3335267058
 20
-179.4369550418
 10
668.6761725698
 20
-183.4795266303
 10
670.2421501314
 20
-187.5156710204
 10
672.0213034253
 20
-191.519212267
 10
674.0020939595
 20
-195.4641858687
 10
676.1716755475
 20
-199.325007158
 10
678.51597762
 20
-203.0766372272
 10
681.0197964786
 20
-206.6947453158
 10
683.6668938971
 20
-210.1558666044
 10
686.4401024331
 20
-213.4375543933
 10
689.3214367649
 20
-216.5185256779
 10
692.2922103339
 20
-219.3787991772
 10
695.3331565333
 20
-221.9998249199
 10
698.4245536603
 20
-224.3646045484
 10
701.5463528182
 20
-226.4578015593
 10
704.6783079414
 20
-228.2658407667
 10
707.8001070992
 20
-229.7769963427
 10
710.8915042262
 20
-230.9814678634
 10
713.9324504257
 20
-231.8714438687
 10
716.9032239946
 20
-232.4411525229
 10
719.7845583265
 20
-232.6868990467
 10
722.5577668624
 20
-232.6070896795
 10
725.2048642809
 20
-232.2022420157
 10
727.7086831395
 20
-231.4749816478
 10
730.0529852121
 20
-230.4300251384
 10
732.2225668
 20
-229.0741494313
 10
734.2033573343
 20
-227.4161479009
 10
735.9825106282
 20
-225.4667733233
 10
737.5484881898
 20
-223.2386681406
 10
738.8911340538
 20
-220.74628247
 10
740.0017406465
 20
-218.005780389
 10
740.8731052579
 20
-215.0349351051
 10
741.4995767544
 20
-211.8530136901
 10
741.8770922276
 20
-208.4806521252
 10
742.003203345
 20
-204.9397214694
  0
ENDSEC
  0
SECTION
  2
OBJECTS
  0
DICTIONARY
  5
C
330
0
100
AcDbDictionary
281
     1
  3
ACAD_GROUP
350
D
  3
ACAD_LAYOUT
350
1A
  3
ACAD_MLINESTYLE
350
17
  3
ACAD_PLOTSETTINGS
350
19
  3
ACAD_PLOTSTYLENAME
350
E
  3
ACAD_SCALELIST
350
47
  0
DICTIONARY
  5
D
102
{ACAD_REACTORS
330
C
102
}
330
C
100
AcDbDictionary
281
     1
  0
DICTIONARY
  5
1A
102
{ACAD_REACTORS
330
C
102
}
330
C
100
AcDbDictionary
281
     1
  3
Layout1
350
1E
  3
Layout2
350
26
  3
Model
350
22
  0
DICTIONARY
  5
17
102
{ACAD_REACTORS
330
C
102
}
330
C
100
AcDbDictionary
281
     1
  3
Standard
350
18
  0
DICTIONARY
  5
19
102
{ACAD_REACTORS
330
C
102
}
330
C
100
AcDbDictionary
281
     1
  0
ACDBDICTIONARYWDFLT
  5
E
102
{ACAD_REACTORS
330
C
102
}
330
C
100
AcDbDictionary
281
     1
  3
Normal
350
F
100
AcDbDictionaryWithDefault
340
F
  0
DICTIONARY
  5
47
102
{ACAD_REACTORS
330
C
102
}
330
C
100
AcDbDictionary
281
     1
  3
A0
350
48
  3
A1
350
49
  3
A2
350
4A
  3
A3
350
4B
  3
A4
350
4C
  3
A5
350
4D
  3
A6
350
4E
  3
A7
350
4F
  3
A8
350
50
  3
A9
350
51
  3
B0
350
52
  3
B1
350
53
  3
B2
350
54
  3
B3
350
55
  3
B4
350
56
  3
B5
350
57
  3
B6
350
58
  3
B7
350
59
  3
B8
350
5A
  3
B9
350
5B
  3
C0
350
5C
  3
C1
350
5D
  3
C2
350
5E
  3
C3
350
5F
  3
C4
350
60
  3
C5
350
61
  3
C6
350
62
  3
C7
350
63
  3
C8
350
64
  3
C9
350
65
  3
D0
350
66
  3
D1
350
67
  3
D2
350
68
  0
LAYOUT
  5
1E
102
{ACAD_REACTORS
330
1A
102
}
330
1A
100
AcDbPlotSettings
  1

  2
none_device
  4

  6

 40
0.0
 41
0.0
 42
0.0
 43
0.0
 44
0.0
 45
0.0
 46
0.0
 47
0.0
 48
0.0
 49
0.0
140
0.0
141
0.0
142
1.0
143
1.0
 70
   688
 72
     1
 73
     0
 74
     5
  7

 75
    16
147
1.0
148
0.0
149
0.0
100
AcDbLayout
  1
Layout1
 70
     1
 71
     1
 10
0.0
 20
0.0
 11
420.0
 21
297.0
 12
0.0
 22
0.0
 32
0.0
 14
1.0000000000E+20
 24
1.0000000000E+20
 34
1.0000000000E+20
 15
-1.0000000000E+20
 25
-1.0000000000E+20
 35
-1.0000000000E+20
146
0.0
 13
0.0
 23
0.0
 33
0.0
 16
1.0
 26
0.0
 36
0.0
 17
0.0
 27
1.0
 37
0.0
 76
     0
330
1B
  0
LAYOUT
  5
26
102
{ACAD_REACTORS
330
1A
102
}
330
1A
100
AcDbPlotSettings
  1

  2
none_device
  4

  6

 40
0.0
 41
0.0
 42
0.0
 43
0.0
 44
0.0
 45
0.0
 46
0.0
 47
0.0
 48
0.0
 49
0.0
140
0.0
141
0.0
142
1.0
143
1.0
 70
   688
 72
     1
 73
     0
 74
     5
  7

 75
    16
147
1.0
148
0.0
149
0.0
100
AcDbLayout
  1
Layout2
 70
     1
 71
     2
 10
0.0
 20
0.0
 11
0.0
 21
0.0
 12
0.0
 22
0.0
 32
0.0
 14
0.0
 24
0.0
 34
0.0
 15
0.0
 25
0.0
 35
0.0
146
0.0
 13
0.0
 23
0.0
 33
0.0
 16
1.0
 26
0.0
 36
0.0
 17
0.0
 27
1.0
 37
0.0
 76
     0
330
23
  0
LAYOUT
  5
22
102
{ACAD_REACTORS
330
1A
102
}
330
1A
100
AcDbPlotSettings
  1

  2
none_device
  4
Letter_(8.50_x_11.00_Inches)
  6

 40
6.35
 41
6.35
 42
6.35000508
 43
6.35000508
 44
215.9
 45
279.4
 46
0.0
 47
0.0
 48
0.0
 49
0.0
140
0.0
141
0.0
142
1.0
143
1.0
 70
  1712
 72
     1
 73
     0
 74
     0
  7

 75
     0
147
1.0
148
0.0
149
0.0
100
AcDbLayout
  1
Model
 70
     1
 71
     0
 10
0.0
 20
0.0
 11
279.4
 21
215.9
 12
0.0
 22
0.0
 32
0.0
 14
0.0
 24
0.0
 34
0.0
 15
279.4
 25
215.9
 35
0.0
146
0.0
 13
0.0
 23
0.0
 33
0.0
 16
1.0
 26
0.0
 36
0.0
 17
0.0
 27
1.0
 37
0.0
 76
     0
330
1F
331
29
  0
MLINESTYLE
  5
18
102
{ACAD_REACTORS
330
17
102
}
330
17
100
AcDbMlineStyle
  2
Standard
 70
     0
  3

 62
   256
 51
90.0
 52
90.0
 71
     2
 49
0.5
 62
   256
  6
BYLAYER
 49
-0.5
 62
   256
  6
BYLAYER
  0
ACDBPLACEHOLDER
  5
F
102
{ACAD_REACTORS
330
E
102
}
330
E
  0
SCALE
  5
48
102
{ACAD_REACTORS
330
47
102
}
330
47
100
AcDbScale
 70
     0
300
1:1
140
1.0
141
1.0
290
     1
  0
SCALE
  5
49
102
{ACAD_REACTORS
330
47
102
}
330
47
100
AcDbScale
 70
     0
300
1:2
140
1.0
141
2.0
290
     0
  0
SCALE
  5
4A
102
{ACAD_REACTORS
330
47
102
}
330
47
100
AcDbScale
 70
     0
300
1:4
140
1.0
141
4.0
290
     0
  0
SCALE
  5
4B
102
{ACAD_REACTORS
330
47
102
}
330
47
100
AcDbScale
 70
     0
300
1:5
140
1.0
141
5.0
290
     0
  0
SCALE
  5
4C
102
{ACAD_REACTORS
330
47
102
}
330
47
100
AcDbScale
 70
     0
300
1:8
140
1.0
141
8.0
290
     0
  0
SCALE
  5
4D
102
{ACAD_REACTORS
330
47
102
}
330
47
100
AcDbScale
 70
     0
300
1:10
140
1.0
141
10.0
290
     0
  0
SCALE
  5
4E
102
{ACAD_REACTORS
330
47
102
}
330
47
100
AcDbScale
 70
     0
300
1:16
140
1.0
141
16.0
290
     0
  0
SCALE
  5
4F
102
{ACAD_REACTORS
330
47
102
}
330
47
100
AcDbScale
 70
     0
300
1:20
140
1.0
141
20.0
290
     0
  0
SCALE
  5
50
102
{ACAD_REACTORS
330
47
102
}
330
47
100
AcDbScale
 70
     0
300
1:30
140
1.0
141
30.0
290
     0
  0
SCALE
  5
51
102
{ACAD_REACTORS
330
47
102
}
330
47
100
AcDbScale
 70
     0
300
1:40
140
1.0
141
40.0
290
     0
  0
SCALE
  5
52
102
{ACAD_REACTORS
330
47
102
}
330
47
100
AcDbScale
 70
     0
300
1:50
140
1.0
141
50.0
290
     0
  0
SCALE
  5
53
102
{ACAD_REACTORS
330
47
102
}
330
47
100
AcDbScale
 70
     0
300
1:100
140
1.0
141
100.0
290
     0
  0
SCALE
  5
54
102
{ACAD_REACTORS
330
47
102
}
330
47
100
AcDbScale
 70
     0
300
2:1
140
2.0
141
1.0
290
     0
  0
SCALE
  5
55
102
{ACAD_REACTORS
330
47
102
}
330
47
100
AcDbScale
 70
     0
300
4:1
140
4.0
141
1.0
290
     0
  0
SCALE
  5
56
102
{ACAD_REACTORS
330
47
102
}
330
47
100
AcDbScale
 70
     0
300
8:1
140
8.0
141
1.0
290
     0
  0
SCALE
  5
57
102
{ACAD_REACTORS
330
47
102
}
330
47
100
AcDbScale
 70
     0
300
10:1
140
10.0
141
1.0
290
     0
  0
SCALE
  5
58
102
{ACAD_REACTORS
330
47
102
}
330
47
100
AcDbScale
 70
     0
300
100:1
140
100.0
141
1.0
290
     0
  0
SCALE
  5
59
102
{ACAD_REACTORS
330
47
102
}
330
47
100
AcDbScale
 70
     0
300
1/128" = 1'-0"
140
0.0078125
141
12.0
290
     0
  0
SCALE
  5
5A
102
{ACAD_REACTORS
330
47
102
}
330
47
100
AcDbScale
 70
     0
300
1/64" = 1'-0"
140
0.015625
141
12.0
290
     0
  0
SCALE
  5
5B
102
{ACAD_REACTORS
330
47
102
}
330
47
100
AcDbScale
 70
     0
300
1/32" = 1'-0"
140
0.03125
141
12.0
290
     0
  0
SCALE
  5
5C
102
{ACAD_REACTORS
330
47
102
}
330
47
100
AcDbScale
 70
     0
300
1/16" = 1'-0"
140
0.0625
141
12.0
290
     0
  0
SCALE
  5
5D
102
{ACAD_REACTORS
330
47
102
}
330
47
100
AcDbScale
 70
     0
300
3/32" = 1'-0"
140
0.09375
141
12.0
290
     0
  0
SCALE
  5
5E
102
{ACAD_REACTORS
330
47
102
}
330
47
100
AcDbScale
 70
     0
300
1/8" = 1'-0"
140
0.125
141
12.0
290
     0
  0
SCALE
  5
5F
102
{ACAD_REACTORS
330
47
102
}
330
47
100
AcDbScale
 70
     0
300
3/16" = 1'-0"
140
0.1875
141
12.0
290
     0
  0
SCALE
  5
60
102
{ACAD_REACTORS
330
47
102
}
330
47
100
AcDbScale
 70
     0
300
1/4" = 1'-0"
140
0.25
141
12.0
290
     0
  0
SCALE
  5
61
102
{ACAD_REACTORS
330
47
102
}
330
47
100
AcDbScale
 70
     0
300
3/8" = 1'-0"
140
0.375
141
12.0
290
     0
  0
SCALE
  5
62
102
{ACAD_REACTORS
330
47
102
}
330
47
100
AcDbScale
 70
     0
300
1/2" = 1'-0"
140
0.5
141
12.0
290
     0
  0
SCALE
  5
63
102
{ACAD_REACTORS
330
47
102
}
330
47
100
AcDbScale
 70
     0
300
3/4" = 1'-0"
140
0.75
141
12.0
290
     0
  0
SCALE
  5
64
102
{ACAD_REACTORS
330
47
102
}
330
47
100
AcDbScale
 70
     0
300
1" = 1'-0"
140
1.0
141
12.0
290
     0
  0
SCALE
  5
65
102
{ACAD_REACTORS
330
47
102
}
330
47
100
AcDbScale
 70
     0
300
1-1/2" = 1'-0"
140
1.5
141
12.0
290
     0
  0
SCALE
  5
66
102
{ACAD_REACTORS
330
47
102
}
330
47
100
AcDbScale
 70
     0
300
3" = 1'-0"
140
3.0
141
12.0
290
     0
  0
SCALE
  5
67
102
{ACAD_REACTORS
330
47
102
}
330
47
100
AcDbScale
 70
     0
300
6" = 1'-0"
140
6.0
141
12.0
290
     0
  0
SCALE
  5
68
102
{ACAD_REACTORS
330
47
102
}
330
47
100
AcDbScale
 70
     0
300
1'-0" = 1'-0"
140
12.0
141
12.0
290
     0
  0
ENDSEC
  0
EOF
